Korn - Love Song (MTV Unplugged) Cover

 

 

Korn - Love Song (MTV Unpluged)

Tuning: DADGBE

 

e|-------------------------------------------------------------------------------------|

B|-------------------------------------------------------------------------------------|

G|-------------------------------------------------------------------------------------|

D|--2-2-2-2-2--------------------------------------------------------------------------|

A|--0-0-0-0-0--6-6-6-6-6--5-5-5-5-5--4-4-4-4-4--3-3-3-3-3--2-2-2-2-2--1-1-1-1-1--------|

D|-------------6-6-6-6-6--5-5-5-5-5--4-4-4-4-4--3-3-3-3-3--2-2-2-2-2--1-1-1-1-1--------|

 

e|-------------------------------------------------------------------------------------|

B|-------------------------------------------------------------------------------------|

G|-------------------------------------------------------------------------------------|

D|--2-2-2-2-2--------------------------------------------------------------------------|

A|--0-0-0-0-0--6-6-6-6-6--5-5-5-5-5--4-4-4-4-4--3-3-3-3-3--2-2-2-2-2--1-1-1-1-1--------|

D|-------------6-6-6-6-6--5-5-5-5-5--4-4-4-4-4--3-3-3-3-3--2-2-2-2-2--1-1-1-1-1--------|

 

e|-----------------------------------|

B|-----------------------------------|

G|-----------------------------------|

D|-----------------------------------| 4x

A|-7-7-7-7-7-7-7-7--8-8-8--5-5-5-5---|

D|-7-7-7-7-7-7-7-7--8-8-8--5-5-5-5---|

 

e|----------------------------------------------------------------|

B|-1-1-1--3-3-3---------------------------------------------------|

G|-2-2-2--2-2-2--1-1-1--------------------------------------------|

D|-2-2-2--0-0-0--2-2-2--3-3-3--2-2-2------------------------------|

A|-0-0-0--0-0-0--2-2-2--3-3-3--2-2-2------------------------------|

D|--------0-0-0--2-2-2--3-3-3--2-2-2------------------------------|

 

e|---------------------------------------------------------------------------|

B|---------------------------------------------------------------------------|

G|---------------------------------------------------------------------------|

D|---------------------------------------------------------------------------|

A|---------------------------------------------------------------------------|

D|-0-0-3-0-0-3-0-3-0-0-5-0-0-5-0-5-0-0-4-0-0-4-0-4-0-0-3-0-2-2-2-2-----------|

 

e|--------------------------------------------------------------------------------------------------|

B|--------------------------------------------------------------------------------------------------|

G|--------------------------------------------------------------------------------------------------|

D|---------5-----------5-----------4-----------4-----------5-----------5-----------4----------------|

A|-2-0-0-0-3-2-2-0-0-0-3-2-2-0-0-0-2-2-2-0-0-0-2-2-2-0-0-0-3-2-2-0-0-0-3-2-2-0-0-0-2-2-3-3--3-2-2-2-|

D|-2-0-0-0---2-2-0-0-0---2-2-0-0-0---2-2-0-0-0---2-2-0-0-0---2-2-0-0-0---2-2-0-0-0---2-3--3-3-2-2-2-|

 

© Eranga Basnayake 2017

<< Previous Page