Foo Fighters  - Everlong Acoustic Cover

 

 

Everlong - Acoustic

Tuning: Drop D low to high (DADGBE)

 

Intro/Verse (00:00:00

e|-------------------------------------------------------------------------------------|

B|-------------------------------------------------------------------------------------|

G|-------------------------------------------------------------------------------------|

D|------11---11-11---11-----11-----11-11-11--------11---11-11---11-----11---11-11-11---|

A|------9----9--9----9------9------9--9--9--0------9----9--9----9------9----9--9--9--0-|

D|--0-0-0--0-0--0--0-0--0-0-0--0-0-0--0--0--0--9-9-9--9-9--9--9-9--9-9-9--9-9--9--9--0-|

 

e|-------------------------------------------------------|

B|-------------------------------------------------------|

G|-------------------------------------------------------|

D|------7-------7-------11-------11-------11-------11----|

A|------5-------5-------9--------9--------9--------9-----|

D|--5-5-5-5-5-5-5-5-9-9-9--9-9-9-9--9-9-9-9--9-9-9-9--9--|

 

Bridge (00:01:20)

e|----------------------------------------------|

B|----------------------------------------------|

G|----------------------------------------------|

D|---------------------------------7-7-7-7-7-7--| 2x

A|-4-4-4-5-5-5-7-7-7-9-9-9-10-10-9-7-7-7-7-7-7--|

D|-0-0-0-0-0-0-0-0-0-0-0-0-0--0--0-7-7-7-7-7-7--|

repeat

 

e|----------------------------------|

B|----------------------------------|

G|----------------------------------|

D|----------------------------------|

A|-4-4-4-5-5-5-7-7-7-9-9-9-10-10-9--|

D|-0-0-0-0-0-0-0-0-0-0-0-0-0--0--0--|

 

Chorus (00:01:35)

e|------------------------------------------------------|

B|------------------------------------------------------|

G|-4--4-4-4-4-4-------------7-7-7--7-7-7--7-7-7-7-7-7-7-|

D|-4--4-4-4-4-4-5-5-5-5-5-5-7-7-7--7-7-7--7-7-7-7-7-7-7-| 2X EACH & LAST CHORUS 5X

A|-2--2-2-2-2-2-5-5-5-5-5-5-5-5-5--5-5-5--5-5-5-5-5-5-5-|

D|--------------5-5-5-5-5-5-----------------------------|

repeat

e|---------------------------------------------------------------------------|

B|---------------------------------------------------------------------------|

G|-4--4-4-4-4-4-------------7-7-7-7-7-7--2-2-2-2-2-2-------------------------|

D|-4--4-4-4-4-4-5-5-5-5-5-5-7-7-7-7-7-7--2-2-2-2-2-2--5-5-5-5-5-5-5-5-5-5-5-5|

A|-2--2-2-2-2-2-5-5-5-5-5-5-5-5-5-5-5-5--0-0-0-0-0-0--5-5-5-5-5-5-5-5-5-5-5-5|

D|--------------5-5-5-5-5-5---------------------------5-5-5-5-5-5-5-5-5-5-5-5|

 

© Eranga Basnayake 2017

Next Page >>